Ir al contenido principal

Tablatura para guitarra de... Rats. Ghost.

La banda sueca Ghost anuncia la salida para el 1 de Junio de nuevo disco que llevará por título "Prequelle" y que supondrá el 4º plástico para la banda. 
 De la misma manera presentaba el primer adelanto del mismo, el tema "Rats" del que desde hoy puedes disfrutar de un momento en tablatura aquí, en 1000 Tablaturas.
  A continuación os dejamos el set list del disco y cómo no, la tablatura del tema "Rats."

1. Ashes.
2. Rats.
3. Faith.
4. See The Light.
5. Miasma.
6. Dance Macabre.
7. Pro Memoria.
8. Witch Image.
9. Helvetesfonster.
10. Life Eternal.

Bonus Tracks (Deluxe edition):

11. Leonard Cohen: Avanlache.
12. Pet Shop Boys: It’s A Sin.



Rats. Ghost.

1.---------------------------|
2.---------------------------|
3.----2--------3--5----------|
4.----0--------3--3--------5-|
5.-//---0--0-0------0--0-0-5-|
6.---------------------------|

1.------------------|
2.------------------|
3.-2--------3--5----|
4.-0--------3--3--5-|
5.---0--0-0-------3-|
6.------------------|

1.---------------…

Tablatura para guitarra de... Despacito. Luis Fonsi ft. Daddy Yankee.


   "Despacito" era el primer sencillo del último trabajo de Luis Fonsi, en el que colaboraba Daddy Yankee y que desde su salida al mercado no para de batir récords. 
   La hemos escuchado en todos sitios, hemos aprendido sus acordes para tocarla y cantarla, incluso se han hecho versiones, adaptaciones y covers para tocarla con otros instrumentos.
   En 1000 Tablaturas queremos ponértelo fácil si eres de los que te gustaría tocar la canción y te queremos dejar un cover en tablatura, para que toques de una manera diferente, una de esas canciones que sin duda marcarán este año.
  
   1000 Tablaturas.



Despacito. Luis Fonsi ft. Daddy Yankee.


1.-----------------------------|
2.-------------5-3-2-------3-3-|
3.-/4----4-6-7-------4-2-0-----|
4.-----4-----------------------|
5.-----------------------------|
6.-----------------------------|

1.----------------------|
2.-3----3---3---3-3/5-2-|
3.---2----2---2---------|
4.----------------------|
5.----------------------|
6.----------------------|

1.---------------------------------|
2.-------------5-3-2-------3-3/5-3-|
3.-/4----4-6-7-------4-2-0---------|
4.-----4---------------------------|
5.---------------------------------|
6.---------------------------------|

1.----------------------|
2.-3----3---3---3-3/5-2-|
3.---2----2---2---------|
4.----------------------|
5.----------------------|
6.----------------------|


1.-------------------------|
2.-------------------------|
3.-4--4-6--4-6-7-6-7-6-7-4-|
4.-------------------------|
5.-------------------------|
6.-------------------------|

1.------------------------|
2.------------------------|
3.-4-6--4-6-7-6-7-6-7-9-7-|
4.------------------------|
5.------------------------|
6.------------------------|

1.-------------------------|
2.-------------------------|
3.---------7---7----7-9-6--|
4.-7-7-7-7---7---7---------|
5.-------------------------|
6.-------------------------|

1.------------------------------|
2.----2-------------------------|
3.-/4---4--4-6--4-6-7-6-7-6-7-4-|
4.------------------------------|
5.------------------------------|
6.------------------------------|

1.----------------------|
2.----------------------|
3.-4-6--4-6-7-6-7-6-7-9-|
4.----------------------|
5.----------------------|
6.----------------------|

1.----------------------------|
2.----------------------------|
3.------------7---7----7-9-6--|
4.-7--7-7-7-7---7---7---------|
5.----------------------------|
6.----------------------------|

1.-------------------------------|
2.-------------------------------|
3.-/7-6-4--------------4-4--4-2-4
4.--------4--4-4-4-4-4-----------|
5.-------------------------------|
6.-------------------------------|

1.--------------------------------|
2.--------------------------------|
3.-2-4--------------4-4-4-6-7-6-7-|
4.-----5--5-5-5-5-5---------------7
5.--------------------------------|
6.--------------------------------|

1.-------------------|
2.-------------------|
3.---------7---7-9-6-|
4.-7-7-7-7---7-------|
5.-------------------|
6.-------------------|

1.-------------------------------|
2.-------------------------------|
3.-/7-6-4--------------4-4--4-2-4
4.--------4--4-4-4-4-4-----------|
5.-------------------------------|
6.-------------------------------|

1.--------------------------------|
2.--------------------------------|
3.-2-4--------------4-4-4-6-7-6-7-|
4.-----5--5-5-5-5-5---------------7
5.--------------------------------|
6.--------------------------------|

1.-------------------|
2.-------------------|
3.---------7---7-9-6-|
4.-7-7-7-7---7-------|
5.-------------------|
6.-------------------|

1.-------------------------------|
2.-7-5-7-5-7--5-7--5-7-5-7-8-8---|
3.-----------------------------7-|
4.-------------------------------|
5.-------------------------------|
6.-------------------------------|

1.---------5--------------5------|
2.-7-8-7-8---8-8-7--7-7-7---8-7-5
3.-------------------------------|
4.-------------------------------|
5.-------------------------------|
6.-------------------------------|

1.-------------------------------|
2.-7-5-7-5-7--5-7--5-7-5-7-8-8---|
3.-----------------------------7-|
4.-------------------------------|
5.-------------------------------|
6.-------------------------------|

1.---------5--------------5------|
2.-7-8-7-8---8-8-7--7-7-7---8-7-5
3.-------------------------------|
4.-------------------------------|
5.-------------------------------|
6.----------------------------|...

Comentarios

LO MÁS BUSCADO EN 1000 TABLATURAS:

Tablatura de... Evil twin. Anthrax.

ANTHRAX anuncia el lanzamiento del DVD en directo "Kings Among Scotland", para el 27 de abril de 2018.

 Filmado en Glasgow, Escocia, el pasado 15 de febrero, un concierto en el que se colgó el cartel de no hay entradas. Un DVD de dos horas que incluirá la actuación completa de ANTHRAX, además de entrevistas, entre bastidores y otro material en el autobús de gira de la banda, backstage, hoteles y otros diversos lugares.

 "For all kings" es el título con el que, el 26 de Febrero de 2016, la legendaria banda y padres del thrash metal, Anthrax, regresaban al panorama musical internacional después de 4 años de inactividad.   Unos días antes nos dejaban portada y tema adelanto "Evil twin" del que como siempre os quiero dejar unos momentos en tablatura que, espero que disfrutéis.

  1000 Tablaturas.




Evil twin. Anthrax.
1.------------------------------------- 2.------------------------------------- 3.------------------------------------- 4.--6-7-8--6-7-8--------4h6-7-8--6-…

Acordes para guitarra de... Saturno. Pablo Alborán.

Después de dos años de descanso, regresa  Pablo Alborán, y lo hace presentándonos dos temas de su próximo lanzamiento, su cuarto álbum que saldrá aproximadamente a mediados de Noviembre.   Hoy para 1000 Tablaturas hemos elegido uno de esos temas de adelanto, en concreto, el que lleva por título "Saturno" para todos los amantes y seguidores del artista y del género, puedan practicar y disfrutar con la guitarra y las letras de su compositor y cantante favorito.   1000 Tablaturas.



Saturno. Pablo Alborán.
Sol                                        Mim Vuelves, en cada sueño que tengo 
 Fa caigo de nuevo en tu red, 
Lam                         Mim sé que tarda un tiempo 
Re curarme de ti de una vez.
Sol                              Mim Tuve tantos momentos felices 
Fa que olvido lo triste que fue 
Lam                Mim darte de mi alma, 
Re lo que tú echaste a perder. 
Mim Yo no quería amarte, 
 Si tú me enseñaste a odiarte. 
Do Todos los besos que me imaginé 
 Si vuelven al lugar donde los vi crecer. 

Tablatura para guitarra de... Thunder high on the mountain. Joe Satriani.

Como ya anunciáramos en éstas páginas, Joe Satriani ya tiene nuevo disco listo para salir al mercado. "What happens next" llevará por título y podremos disfrutar de él al completo el próximo 12 de Enero.  
  Mientras tanto el guitarrista nos va adelantando algún que otro tema, ya lo hizo con "Energy" y ahora le toca a "Thunder high on the mountain" del que cómo siempre, os queremos dejar unos momentos en tablatura para que disfrutéis de éste genio de la guitarra.

  1000 Tablaturas.



Thunder high on the mountain. Joe Satriani.


  (0:16)

1.-------------------------------|
2.-------------------------------|
3.-6p0--8p0-8p0-8p0-8p0-8p0--6p0-|
4.-------------------------------|
5.-------------------------------|
6.-------------------------------|

1.-------------------------------|
2.-------------------------------|
3.-8p0-10p0-8p0-6p0-8p0-6p0------|
4.--------------------------8p0--|
5.-------------------------------|
6.-------------------------------|

1.----------------------…

Acordes para guitarra de ... Telefonía. Jorge Drexler.

Hace cosa de un mes que Jorge Drexler nos adelantaba un tema de lo que va a ser su nuevo trabajo, que tendría fecha de salida para el 22 de Septiembre. 
  Dicen que el uruguayo posee el secreto para construir sencillas melodías y combinarlas con letras con un claro mensaje tratado de forma dulce, y para éste último adelanto, de título "Telefonía" las críticas han vuelto a repetir cómo con un bonito ritmo, volvía a hacer una clara declaración de intenciones.
  Hoy en 1000 Tablaturas os queremos dejar unos acordes de "Telefonía" para que, los que les guste la manera de contarnos las cosas de Drexler, pasen un buen rato tocando la guitarra.






Telefonía. Jorge Drexler.


Mi   Fa#m   Mi  Fa#m

Mi
Que viva la telefonía 

 La Mi
En todas sus variantes.

Fa#m
Pensando estaba 

 La
Que te me escabullías 


Cuando vi tu nombre 

 Si
En la llamada entrante 

La                                    Sol#m
Bendita cada onda, cada cable

 Fa#m                                  Mi
Bendita radiación de las antenas…

Acordes para guitarra de... Invisible. Malú.

Después de 2 años vuelve Malú, reinventándose a sí misma, cómo afirma su discográfica y con muy buenas críticas de diferentes medios. "Invisible" se llama el adelanto de lo que promete ser su próximo trabajo.
  Con más de dos millones de copias vendidas, veintidós discos de Platino, dos nominaciones a los Grammy Latinos, cinco Premios 40 Principales, el Premio Ondas Mejor Artista del Año, once Premios Dial, la Medalla de Andalucía... y récords batidos cómo en su gira  "Tour Sí", en la que la cantante madrileña se convirtió en la única artista femenina española en conseguir llenar el Palacio de los Deportes de Madrid cuatro veces en una misma gira, Malú es, por derecho propio uno de los exponentes de la música cantada en español.
   En 1000 Tablaturas, cómo siempre, te queremos dejar unos momentos en tablatura, mejor dicho con los acordes de su "Invisible" para que disfrutes, toques la guitarra y cantes, con una de las artistas del momento.
  1000 Tablatur…

Tablatura para guitarra de... Rats. Ghost.

La banda sueca Ghost anuncia la salida para el 1 de Junio de nuevo disco que llevará por título "Prequelle" y que supondrá el 4º plástico para la banda. 
 De la misma manera presentaba el primer adelanto del mismo, el tema "Rats" del que desde hoy puedes disfrutar de un momento en tablatura aquí, en 1000 Tablaturas.
  A continuación os dejamos el set list del disco y cómo no, la tablatura del tema "Rats."

1. Ashes.
2. Rats.
3. Faith.
4. See The Light.
5. Miasma.
6. Dance Macabre.
7. Pro Memoria.
8. Witch Image.
9. Helvetesfonster.
10. Life Eternal.

Bonus Tracks (Deluxe edition):

11. Leonard Cohen: Avanlache.
12. Pet Shop Boys: It’s A Sin.



Rats. Ghost.

1.---------------------------|
2.---------------------------|
3.----2--------3--5----------|
4.----0--------3--3--------5-|
5.-//---0--0-0------0--0-0-5-|
6.---------------------------|

1.------------------|
2.------------------|
3.-2--------3--5----|
4.-0--------3--3--5-|
5.---0--0-0-------3-|
6.------------------|

1.---------------…

Tablatura para guitarra de... Cherry Blossoms. Joe Satriani.

Ya podemos disfrutar del nuevo álbum del guitarrista, rey de la melodía, Joe Satriani. "What happens next" lleva por título y representa el disco número 16 en su carrera.

  En 1000 Tablaturas ya habíamos publicado algunos momentos en tablatura de sus temas adelanto y hoy lo hacemos de uno de los temas del disco que más nos ha cautivado en su primera escucha, "Cherry Blossoms."


  1000 Tablaturas.


Cherry Blossoms. Joe Satriani.

1.-----------------------------|
2.-----------------------------|
3.-----------------------------|
4.-/6-6-6--6-6-6-7--4---/6-6-6-|
5.-----------------------------|
6.-----------------------------|

1.-----------------------------|
2.-----------------------------|
3.-----------------------------|
4.-4--2--1-----/6-6-6--6-6-6-7-|
5.---------/4------------------|
6.-----------------------------|

1.-----------------------------|
2.-------------------------7/9-|
3.-----------------------------|
4.-4---------------------------|
5.----6h7h6--4--2--2h4-4-------|
6.-------…

Acordes y Tablatura para gutiarra de... Entre dos mares. Fito y Fitipaldis.

Para celebrar sus 20 años, Fito y fitipaldis regresan, presentando nuevo disco y nueva gira. Un disco recopilatorio con algunas de las mejores canciones de la banda liderada por Fito y muchas colaboraciones, además de un libro, que saldrá a la venta el 10 de Noviembre y, anuncia gira para el año que viene, "20 años, 20 ciudades" con algunas fechas ya confirmadas.
   También nos ha presentado un tema adelanto, un tema que popularizara en su carrera con los "Platero y Tú" en concreto, "Entre dos mares" de su disco "Correos".
  Y como de costumbre en 1000 Tablaturas queremos dejarte unos momentos en tablatura y acordes del tema, para que disfrutes con una de las mejores bandas del momento.

  1000 Tablaturas.



Entre dos mares. Fito y Fitipaldis.


1.-2-------------------------------|
2.-3----------------2-2------------|
3.-2----2-----------2-2------------|
4.-0-/4---4-2-0-----2-2----2-------|
5.--------------2-0-0-0-/4---4-2-0-|
6.------------------------------…